ISO-10303-21;
HEADER;
FILE_DESCRIPTION(('Creo Elements/Direct Modeling STEP Export'),'2;1');
FILE_NAME('C:/temp/0lndrr04ol4nglv2948/0lndrr04ol4ngm02948',
'2019-01-10T 9:30:05',(''),(''),
'PTC Creo Elements/Direct Modeling STEP processor for AP214 (Solid Model
)',
'PTC Creo Elements/Direct Modeling 19.0B  21-Mar-2015 (C) Parametric Tec
hnology GmbH','');
FILE_SCHEMA(('AUTOMOTIVE_DESIGN { 1 0 10303 214 1 1 1 1 }'));
ENDSEC;
DATA;
#10=CARTESIAN_POINT('',(0.,0.,0.));
#20=DIRECTION('',(0.,0.,1.));
#30=DIRECTION('',(1.,0.,0.));
#40=AXIS2_PLACEMENT_3D('',#10,#20,#30);
#50=PLANE('',#40);
#60=CARTESIAN_POINT('',(39.,54.,0.));
#70=DIRECTION('',(0.,0.,-1.));
#80=DIRECTION('',(-1.,0.,0.));
#90=AXIS2_PLACEMENT_3D('',#60,#70,#80);
#100=CIRCLE('',#90,3.68867513459481);
#110=CARTESIAN_POINT('',(42.6886751345948,54.,0.));
#120=VERTEX_POINT('',#110);
#130=CARTESIAN_POINT('',(35.3113248654052,54.,0.));
#140=VERTEX_POINT('',#130);
#150=EDGE_CURVE('',#120,#140,#100,.T.);
#160=ORIENTED_EDGE('',*,*,#150,.F.);
#170=EDGE_CURVE('',#140,#120,#100,.T.);
#180=ORIENTED_EDGE('',*,*,#170,.F.);
#190=EDGE_LOOP('',(#180,#160));
#200=FACE_BOUND('',#190,.T.);
#210=CARTESIAN_POINT('',(39.,54.,0.));
#220=DIRECTION('',(0.,0.,1.));
#230=DIRECTION('',(1.,0.,0.));
#240=AXIS2_PLACEMENT_3D('',#210,#220,#230);
#250=CIRCLE('',#240,4.6);
#260=CARTESIAN_POINT('',(43.6,54.,0.));
#270=VERTEX_POINT('',#260);
#280=CARTESIAN_POINT('',(34.4,54.,0.));
#290=VERTEX_POINT('',#280);
#300=EDGE_CURVE('',#270,#290,#250,.T.);
#310=ORIENTED_EDGE('',*,*,#300,.F.);
#320=EDGE_CURVE('',#290,#270,#250,.T.);
#330=ORIENTED_EDGE('',*,*,#320,.F.);
#340=EDGE_LOOP('',(#330,#310));
#350=FACE_OUTER_BOUND('',#340,.T.);
#360=ADVANCED_FACE('',(#200,#350),#50,.F.);
#370=CARTESIAN_POINT('',(39.,54.,0.));
#380=DIRECTION('',(0.,0.,-1.));
#390=DIRECTION('',(-1.,0.,0.));
#400=AXIS2_PLACEMENT_3D('',#370,#380,#390);
#410=CONICAL_SURFACE('',#400,3.68867513459481,0.523598775598296);
#420=CARTESIAN_POINT('',(35.3113248654052,54.,0.));
#430=DIRECTION('',(-0.499999999999998,0.,-0.86602540378444));
#440=VECTOR('',#430,7.37735026918965);
#450=LINE('',#420,#440);
#460=CARTESIAN_POINT('',(35.6,54.,0.5));
#470=VERTEX_POINT('',#460);
#480=EDGE_CURVE('',#470,#140,#450,.T.);
#490=ORIENTED_EDGE('',*,*,#480,.T.);
#500=CARTESIAN_POINT('',(39.,54.,0.5));
#510=DIRECTION('',(0.,0.,-1.));
#520=DIRECTION('',(-1.,0.,0.));
#530=AXIS2_PLACEMENT_3D('',#500,#510,#520);
#540=CIRCLE('',#530,3.4);
#550=CARTESIAN_POINT('',(42.4,54.,0.5));
#560=VERTEX_POINT('',#550);
#570=EDGE_CURVE('',#470,#560,#540,.T.);
#580=ORIENTED_EDGE('',*,*,#570,.F.);
#590=CARTESIAN_POINT('',(42.6886751345948,54.,0.));
#600=DIRECTION('',(0.499999999999998,0.,-0.86602540378444));
#610=VECTOR('',#600,7.37735026918965);
#620=LINE('',#590,#610);
#630=EDGE_CURVE('',#560,#120,#620,.T.);
#640=ORIENTED_EDGE('',*,*,#630,.F.);
#650=ORIENTED_EDGE('',*,*,#170,.T.);
#660=EDGE_LOOP('',(#650,#640,#580,#490));
#670=FACE_OUTER_BOUND('',#660,.T.);
#680=ADVANCED_FACE('',(#670),#410,.F.);
#690=CARTESIAN_POINT('',(39.,54.,0.));
#700=DIRECTION('',(0.,0.,-1.));
#710=DIRECTION('',(-1.,0.,0.));
#720=AXIS2_PLACEMENT_3D('',#690,#700,#710);
#730=CONICAL_SURFACE('',#720,3.68867513459481,0.523598775598296);
#740=ORIENTED_EDGE('',*,*,#150,.T.);
#750=ORIENTED_EDGE('',*,*,#630,.T.);
#760=EDGE_CURVE('',#560,#470,#540,.T.);
#770=ORIENTED_EDGE('',*,*,#760,.F.);
#780=ORIENTED_EDGE('',*,*,#480,.F.);
#790=EDGE_LOOP('',(#780,#770,#750,#740));
#800=FACE_OUTER_BOUND('',#790,.T.);
#810=ADVANCED_FACE('',(#800),#730,.F.);
#820=CARTESIAN_POINT('',(0.,0.,18.));
#830=DIRECTION('',(0.,0.,1.));
#840=DIRECTION('',(1.,0.,0.));
#850=AXIS2_PLACEMENT_3D('',#820,#830,#840);
#860=PLANE('',#850);
#870=CARTESIAN_POINT('',(40.35,54.,18.));
#880=DIRECTION('',(0.,0.,1.));
#890=DIRECTION('',(1.,0.,0.));
#900=AXIS2_PLACEMENT_3D('',#870,#880,#890);
#910=CIRCLE('',#900,2.6);
#920=CARTESIAN_POINT('',(37.75,54.,18.));
#930=VERTEX_POINT('',#920);
#940=CARTESIAN_POINT('',(42.95,54.,18.));
#950=VERTEX_POINT('',#940);
#960=EDGE_CURVE('',#930,#950,#910,.T.);
#970=ORIENTED_EDGE('',*,*,#960,.F.);
#980=EDGE_CURVE('',#950,#930,#910,.T.);
#990=ORIENTED_EDGE('',*,*,#980,.F.);
#1000=EDGE_LOOP('',(#990,#970));
#1010=FACE_BOUND('',#1000,.T.);
#1020=CARTESIAN_POINT('',(39.,54.,18.));
#1030=DIRECTION('',(0.,0.,1.));
#1040=DIRECTION('',(1.,0.,0.));
#1050=AXIS2_PLACEMENT_3D('',#1020,#1030,#1040);
#1060=CIRCLE('',#1050,4.3);
#1070=CARTESIAN_POINT('',(43.3,54.,18.));
#1080=VERTEX_POINT('',#1070);
#1090=CARTESIAN_POINT('',(34.7,54.,18.));
#1100=VERTEX_POINT('',#1090);
#1110=EDGE_CURVE('',#1080,#1100,#1060,.T.);
#1120=ORIENTED_EDGE('',*,*,#1110,.T.);
#1130=EDGE_CURVE('',#1100,#1080,#1060,.T.);
#1140=ORIENTED_EDGE('',*,*,#1130,.T.);
#1150=EDGE_LOOP('',(#1140,#1120));
#1160=FACE_OUTER_BOUND('',#1150,.T.);
#1170=ADVANCED_FACE('',(#1010,#1160),#860,.T.);
#1180=CARTESIAN_POINT('',(39.,54.,15.));
#1190=DIRECTION('',(0.,0.,-1.));
#1200=DIRECTION('',(0.,-1.,0.));
#1210=AXIS2_PLACEMENT_3D('',#1180,#1190,#1200);
#1220=CONICAL_SURFACE('',#1210,3.4,1.0471975511966);
#1230=CARTESIAN_POINT('',(39.,57.4,15.));
#1240=DIRECTION('',(0.,0.866025403784439,-0.5));
#1250=VECTOR('',#1240,3.92598183048945);
#1260=LINE('',#1230,#1250);
#1270=CARTESIAN_POINT('',(39.,54.,16.9629909152447));
#1280=VERTEX_POINT('',#1270);
#1290=CARTESIAN_POINT('',(39.,57.4,15.));
#1300=VERTEX_POINT('',#1290);
#1310=EDGE_CURVE('',#1280,#1300,#1260,.T.);
#1320=ORIENTED_EDGE('',*,*,#1310,.T.);
#1330=CARTESIAN_POINT('',(39.,50.6,15.));
#1340=DIRECTION('',(0.,-0.866025403784439,-0.5));
#1350=VECTOR('',#1340,3.92598183048945);
#1360=LINE('',#1330,#1350);
#1370=CARTESIAN_POINT('',(39.,50.6,15.));
#1380=VERTEX_POINT('',#1370);
#1390=EDGE_CURVE('',#1280,#1380,#1360,.T.);
#1400=ORIENTED_EDGE('',*,*,#1390,.F.);
#1410=CARTESIAN_POINT('',(39.,54.,15.));
#1420=DIRECTION('',(0.,0.,-1.));
#1430=DIRECTION('',(1.,0.,0.));
#1440=AXIS2_PLACEMENT_3D('',#1410,#1420,#1430);
#1450=CIRCLE('',#1440,3.4);
#1460=CARTESIAN_POINT('',(42.4,54.,15.));
#1470=VERTEX_POINT('',#1460);
#1480=EDGE_CURVE('',#1470,#1380,#1450,.T.);
#1490=ORIENTED_EDGE('',*,*,#1480,.T.);
#1500=EDGE_CURVE('',#1300,#1470,#1450,.T.);
#1510=ORIENTED_EDGE('',*,*,#1500,.T.);
#1520=EDGE_LOOP('',(#1510,#1490,#1400,#1320));
#1530=FACE_OUTER_BOUND('',#1520,.T.);
#1540=ADVANCED_FACE('',(#1530),#1220,.F.);
#1550=CARTESIAN_POINT('',(39.,54.,0.));
#1560=DIRECTION('',(0.,0.,-1.));
#1570=DIRECTION('',(1.,0.,0.));
#1580=AXIS2_PLACEMENT_3D('',#1550,#1560,#1570);
#1590=CYLINDRICAL_SURFACE('',#1580,3.4);
#1600=CARTESIAN_POINT('',(42.4,54.,0.));
#1610=DIRECTION('',(0.,0.,-1.));
#1620=VECTOR('',#1610,1.);
#1630=LINE('',#1600,#1620);
#1640=EDGE_CURVE('',#1470,#560,#1630,.T.);
#1650=ORIENTED_EDGE('',*,*,#1640,.F.);
#1660=ORIENTED_EDGE('',*,*,#570,.T.);
#1670=CARTESIAN_POINT('',(35.6,54.,0.));
#1680=DIRECTION('',(0.,0.,-1.));
#1690=VECTOR('',#1680,1.);
#1700=LINE('',#1670,#1690);
#1710=CARTESIAN_POINT('',(35.6,54.,15.));
#1720=VERTEX_POINT('',#1710);
#1730=EDGE_CURVE('',#1720,#470,#1700,.T.);
#1740=ORIENTED_EDGE('',*,*,#1730,.T.);
#1750=EDGE_CURVE('',#1720,#1300,#1450,.T.);
#1760=ORIENTED_EDGE('',*,*,#1750,.F.);
#1770=ORIENTED_EDGE('',*,*,#1500,.F.);
#1780=EDGE_LOOP('',(#1770,#1760,#1740,#1660,#1650));
#1790=FACE_OUTER_BOUND('',#1780,.T.);
#1800=ADVANCED_FACE('',(#1790),#1590,.F.);
#1810=CARTESIAN_POINT('',(38.9664805058308,54.,26.));
#1820=DIRECTION('',(0.,0.,1.));
#1830=DIRECTION('',(1.,0.,0.));
#1840=AXIS2_PLACEMENT_3D('',#1810,#1820,#1830);
#1850=PLANE('',#1840);
#1860=CARTESIAN_POINT('',(40.35,54.,26.));
#1870=DIRECTION('',(0.,0.,1.));
#1880=DIRECTION('',(1.,0.,0.));
#1890=AXIS2_PLACEMENT_3D('',#1860,#1870,#1880);
#1900=CIRCLE('',#1890,1.3);
#1910=CARTESIAN_POINT('',(41.65,54.,26.));
#1920=VERTEX_POINT('',#1910);
#1930=CARTESIAN_POINT('',(39.05,54.,26.));
#1940=VERTEX_POINT('',#1930);
#1950=EDGE_CURVE('',#1920,#1940,#1900,.T.);
#1960=ORIENTED_EDGE('',*,*,#1950,.T.);
#1970=EDGE_CURVE('',#1940,#1920,#1900,.T.);
#1980=ORIENTED_EDGE('',*,*,#1970,.T.);
#1990=EDGE_LOOP('',(#1980,#1960));
#2000=FACE_OUTER_BOUND('',#1990,.T.);
#2010=ADVANCED_FACE('',(#2000),#1850,.T.);
#2020=CARTESIAN_POINT('',(40.35,54.,18.));
#2030=DIRECTION('',(0.,0.,1.));
#2040=DIRECTION('',(1.,0.,0.));
#2050=AXIS2_PLACEMENT_3D('',#2020,#2030,#2040);
#2060=CYLINDRICAL_SURFACE('',#2050,2.3);
#2070=CARTESIAN_POINT('',(42.65,54.,18.));
#2080=DIRECTION('',(0.,0.,1.));
#2090=VECTOR('',#2080,1.);
#2100=LINE('',#2070,#2090);
#2110=CARTESIAN_POINT('',(42.65,54.,18.3));
#2120=VERTEX_POINT('',#2110);
#2130=CARTESIAN_POINT('',(42.65,54.,25.));
#2140=VERTEX_POINT('',#2130);
#2150=EDGE_CURVE('',#2120,#2140,#2100,.T.);
#2160=ORIENTED_EDGE('',*,*,#2150,.T.);
#2170=CARTESIAN_POINT('',(40.35,54.,18.3));
#2180=DIRECTION('',(0.,0.,1.));
#2190=DIRECTION('',(1.,0.,0.));
#2200=AXIS2_PLACEMENT_3D('',#2170,#2180,#2190);
#2210=CIRCLE('',#2200,2.3);
#2220=CARTESIAN_POINT('',(38.05,54.,18.3));
#2230=VERTEX_POINT('',#2220);
#2240=EDGE_CURVE('',#2230,#2120,#2210,.T.);
#2250=ORIENTED_EDGE('',*,*,#2240,.T.);
#2260=CARTESIAN_POINT('',(38.05,54.,18.));
#2270=DIRECTION('',(0.,0.,1.));
#2280=VECTOR('',#2270,1.);
#2290=LINE('',#2260,#2280);
#2300=CARTESIAN_POINT('',(38.05,54.,25.));
#2310=VERTEX_POINT('',#2300);
#2320=EDGE_CURVE('',#2230,#2310,#2290,.T.);
#2330=ORIENTED_EDGE('',*,*,#2320,.F.);
#2340=CARTESIAN_POINT('',(40.35,54.,25.));
#2350=DIRECTION('',(0.,0.,1.));
#2360=DIRECTION('',(1.,0.,0.));
#2370=AXIS2_PLACEMENT_3D('',#2340,#2350,#2360);
#2380=CIRCLE('',#2370,2.3);
#2390=EDGE_CURVE('',#2310,#2140,#2380,.T.);
#2400=ORIENTED_EDGE('',*,*,#2390,.F.);
#2410=EDGE_LOOP('',(#2400,#2330,#2250,#2160));
#2420=FACE_OUTER_BOUND('',#2410,.T.);
#2430=ADVANCED_FACE('',(#2420),#2060,.T.);
#2440=CARTESIAN_POINT('',(40.35,54.,25.));
#2450=DIRECTION('',(0.,0.,1.));
#2460=DIRECTION('',(1.,0.,0.));
#2470=AXIS2_PLACEMENT_3D('',#2440,#2450,#2460);
#2480=TOROIDAL_SURFACE('',#2470,1.3,1.);
#2490=CARTESIAN_POINT('',(41.65,54.,25.));
#2500=DIRECTION('',(0.,1.,0.));
#2510=DIRECTION('',(1.,0.,0.));
#2520=AXIS2_PLACEMENT_3D('',#2490,#2500,#2510);
#2530=CIRCLE('',#2520,1.);
#2540=EDGE_CURVE('',#1920,#2140,#2530,.T.);
#2550=ORIENTED_EDGE('',*,*,#2540,.F.);
#2560=ORIENTED_EDGE('',*,*,#2390,.T.);
#2570=CARTESIAN_POINT('',(39.05,54.,25.));
#2580=DIRECTION('',(0.,-1.,0.));
#2590=DIRECTION('',(-1.,0.,0.));
#2600=AXIS2_PLACEMENT_3D('',#2570,#2580,#2590);
#2610=CIRCLE('',#2600,1.);
#2620=EDGE_CURVE('',#1940,#2310,#2610,.T.);
#2630=ORIENTED_EDGE('',*,*,#2620,.T.);
#2640=ORIENTED_EDGE('',*,*,#1970,.F.);
#2650=EDGE_LOOP('',(#2640,#2630,#2560,#2550));
#2660=FACE_OUTER_BOUND('',#2650,.T.);
#2670=ADVANCED_FACE('',(#2660),#2480,.T.);
#2680=CARTESIAN_POINT('',(40.35,54.,18.3));
#2690=DIRECTION('',(0.,0.,1.));
#2700=DIRECTION('',(1.,0.,0.));
#2710=AXIS2_PLACEMENT_3D('',#2680,#2690,#2700);
#2720=TOROIDAL_SURFACE('',#2710,2.6,0.3);
#2730=CARTESIAN_POINT('',(42.95,54.,18.3));
#2740=DIRECTION('',(0.,1.,0.));
#2750=DIRECTION('',(1.,0.,0.));
#2760=AXIS2_PLACEMENT_3D('',#2730,#2740,#2750);
#2770=CIRCLE('',#2760,0.3);
#2780=EDGE_CURVE('',#950,#2120,#2770,.T.);
#2790=ORIENTED_EDGE('',*,*,#2780,.F.);
#2800=EDGE_CURVE('',#2120,#2230,#2210,.T.);
#2810=ORIENTED_EDGE('',*,*,#2800,.F.);
#2820=CARTESIAN_POINT('',(37.75,54.,18.3));
#2830=DIRECTION('',(0.,-1.,0.));
#2840=DIRECTION('',(-1.,0.,0.));
#2850=AXIS2_PLACEMENT_3D('',#2820,#2830,#2840);
#2860=CIRCLE('',#2850,0.3);
#2870=EDGE_CURVE('',#930,#2230,#2860,.T.);
#2880=ORIENTED_EDGE('',*,*,#2870,.T.);
#2890=ORIENTED_EDGE('',*,*,#980,.T.);
#2900=EDGE_LOOP('',(#2890,#2880,#2810,#2790));
#2910=FACE_OUTER_BOUND('',#2900,.T.);
#2920=ADVANCED_FACE('',(#2910),#2720,.F.);
#2930=CARTESIAN_POINT('',(39.,54.,17.7));
#2940=DIRECTION('',(0.,0.,1.));
#2950=DIRECTION('',(1.,0.,0.));
#2960=AXIS2_PLACEMENT_3D('',#2930,#2940,#2950);
#2970=TOROIDAL_SURFACE('',#2960,4.3,0.3);
#2980=CARTESIAN_POINT('',(43.3,54.,17.7));
#2990=DIRECTION('',(0.,1.,0.));
#3000=DIRECTION('',(1.,0.,0.));
#3010=AXIS2_PLACEMENT_3D('',#2980,#2990,#3000);
#3020=CIRCLE('',#3010,0.3);
#3030=CARTESIAN_POINT('',(43.6,54.,17.7));
#3040=VERTEX_POINT('',#3030);
#3050=EDGE_CURVE('',#1080,#3040,#3020,.T.);
#3060=ORIENTED_EDGE('',*,*,#3050,.F.);
#3070=CARTESIAN_POINT('',(39.,54.,17.7));
#3080=DIRECTION('',(0.,0.,1.));
#3090=DIRECTION('',(1.,0.,0.));
#3100=AXIS2_PLACEMENT_3D('',#3070,#3080,#3090);
#3110=CIRCLE('',#3100,4.6);
#3120=CARTESIAN_POINT('',(34.4,54.,17.7));
#3130=VERTEX_POINT('',#3120);
#3140=EDGE_CURVE('',#3130,#3040,#3110,.T.);
#3150=ORIENTED_EDGE('',*,*,#3140,.T.);
#3160=CARTESIAN_POINT('',(34.7,54.,17.7));
#3170=DIRECTION('',(0.,-1.,0.));
#3180=DIRECTION('',(-1.,0.,0.));
#3190=AXIS2_PLACEMENT_3D('',#3160,#3170,#3180);
#3200=CIRCLE('',#3190,0.3);
#3210=EDGE_CURVE('',#1100,#3130,#3200,.T.);
#3220=ORIENTED_EDGE('',*,*,#3210,.T.);
#3230=ORIENTED_EDGE('',*,*,#1130,.F.);
#3240=EDGE_LOOP('',(#3230,#3220,#3150,#3060));
#3250=FACE_OUTER_BOUND('',#3240,.T.);
#3260=ADVANCED_FACE('',(#3250),#2970,.T.);
#3270=CARTESIAN_POINT('',(39.,54.,0.));
#3280=DIRECTION('',(0.,0.,-1.));
#3290=DIRECTION('',(1.,0.,0.));
#3300=AXIS2_PLACEMENT_3D('',#3270,#3280,#3290);
#3310=CYLINDRICAL_SURFACE('',#3300,3.4);
#3320=ORIENTED_EDGE('',*,*,#1480,.F.);
#3330=EDGE_CURVE('',#1380,#1720,#1450,.T.);
#3340=ORIENTED_EDGE('',*,*,#3330,.F.);
#3350=ORIENTED_EDGE('',*,*,#1730,.F.);
#3360=ORIENTED_EDGE('',*,*,#760,.T.);
#3370=ORIENTED_EDGE('',*,*,#1640,.T.);
#3380=EDGE_LOOP('',(#3370,#3360,#3350,#3340,#3320));
#3390=FACE_OUTER_BOUND('',#3380,.T.);
#3400=ADVANCED_FACE('',(#3390),#3310,.F.);
#3410=CARTESIAN_POINT('',(39.,54.,15.));
#3420=DIRECTION('',(0.,0.,-1.));
#3430=DIRECTION('',(0.,-1.,0.));
#3440=AXIS2_PLACEMENT_3D('',#3410,#3420,#3430);
#3450=CONICAL_SURFACE('',#3440,3.4,1.0471975511966);
#3460=ORIENTED_EDGE('',*,*,#1750,.T.);
#3470=ORIENTED_EDGE('',*,*,#3330,.T.);
#3480=ORIENTED_EDGE('',*,*,#1390,.T.);
#3490=ORIENTED_EDGE('',*,*,#1310,.F.);
#3500=EDGE_LOOP('',(#3490,#3480,#3470,#3460));
#3510=FACE_OUTER_BOUND('',#3500,.T.);
#3520=ADVANCED_FACE('',(#3510),#3450,.F.);
#3530=CARTESIAN_POINT('',(40.35,54.,18.));
#3540=DIRECTION('',(0.,0.,1.));
#3550=DIRECTION('',(1.,0.,0.));
#3560=AXIS2_PLACEMENT_3D('',#3530,#3540,#3550);
#3570=CYLINDRICAL_SURFACE('',#3560,2.3);
#3580=ORIENTED_EDGE('',*,*,#2150,.F.);
#3590=EDGE_CURVE('',#2140,#2310,#2380,.T.);
#3600=ORIENTED_EDGE('',*,*,#3590,.F.);
#3610=ORIENTED_EDGE('',*,*,#2320,.T.);
#3620=ORIENTED_EDGE('',*,*,#2800,.T.);
#3630=EDGE_LOOP('',(#3620,#3610,#3600,#3580));
#3640=FACE_OUTER_BOUND('',#3630,.T.);
#3650=ADVANCED_FACE('',(#3640),#3570,.T.);
#3660=CARTESIAN_POINT('',(40.35,54.,18.3));
#3670=DIRECTION('',(0.,0.,1.));
#3680=DIRECTION('',(1.,0.,0.));
#3690=AXIS2_PLACEMENT_3D('',#3660,#3670,#3680);
#3700=TOROIDAL_SURFACE('',#3690,2.6,0.3);
#3710=ORIENTED_EDGE('',*,*,#960,.T.);
#3720=ORIENTED_EDGE('',*,*,#2870,.F.);
#3730=ORIENTED_EDGE('',*,*,#2240,.F.);
#3740=ORIENTED_EDGE('',*,*,#2780,.T.);
#3750=EDGE_LOOP('',(#3740,#3730,#3720,#3710));
#3760=FACE_OUTER_BOUND('',#3750,.T.);
#3770=ADVANCED_FACE('',(#3760),#3700,.F.);
#3780=CARTESIAN_POINT('',(39.,54.,17.7));
#3790=DIRECTION('',(0.,0.,1.));
#3800=DIRECTION('',(1.,0.,0.));
#3810=AXIS2_PLACEMENT_3D('',#3780,#3790,#3800);
#3820=TOROIDAL_SURFACE('',#3810,4.3,0.3);
#3830=ORIENTED_EDGE('',*,*,#1110,.F.);
#3840=ORIENTED_EDGE('',*,*,#3210,.F.);
#3850=EDGE_CURVE('',#3040,#3130,#3110,.T.);
#3860=ORIENTED_EDGE('',*,*,#3850,.T.);
#3870=ORIENTED_EDGE('',*,*,#3050,.T.);
#3880=EDGE_LOOP('',(#3870,#3860,#3840,#3830));
#3890=FACE_OUTER_BOUND('',#3880,.T.);
#3900=ADVANCED_FACE('',(#3890),#3820,.T.);
#3910=CARTESIAN_POINT('',(40.35,54.,25.));
#3920=DIRECTION('',(0.,0.,1.));
#3930=DIRECTION('',(1.,0.,0.));
#3940=AXIS2_PLACEMENT_3D('',#3910,#3920,#3930);
#3950=TOROIDAL_SURFACE('',#3940,1.3,1.);
#3960=ORIENTED_EDGE('',*,*,#1950,.F.);
#3970=ORIENTED_EDGE('',*,*,#2620,.F.);
#3980=ORIENTED_EDGE('',*,*,#3590,.T.);
#3990=ORIENTED_EDGE('',*,*,#2540,.T.);
#4000=EDGE_LOOP('',(#3990,#3980,#3970,#3960));
#4010=FACE_OUTER_BOUND('',#4000,.T.);
#4020=ADVANCED_FACE('',(#4010),#3950,.T.);
#4030=CARTESIAN_POINT('',(39.,54.,0.));
#4040=DIRECTION('',(0.,0.,1.));
#4050=DIRECTION('',(1.,0.,0.));
#4060=AXIS2_PLACEMENT_3D('',#4030,#4040,#4050);
#4070=CYLINDRICAL_SURFACE('',#4060,4.6);
#4080=CARTESIAN_POINT('',(43.6,54.,0.));
#4090=DIRECTION('',(0.,0.,1.));
#4100=VECTOR('',#4090,1.);
#4110=LINE('',#4080,#4100);
#4120=EDGE_CURVE('',#270,#3040,#4110,.T.);
#4130=ORIENTED_EDGE('',*,*,#4120,.T.);
#4140=ORIENTED_EDGE('',*,*,#320,.T.);
#4150=CARTESIAN_POINT('',(34.4,54.,0.));
#4160=DIRECTION('',(0.,0.,1.));
#4170=VECTOR('',#4160,1.);
#4180=LINE('',#4150,#4170);
#4190=EDGE_CURVE('',#290,#3130,#4180,.T.);
#4200=ORIENTED_EDGE('',*,*,#4190,.F.);
#4210=ORIENTED_EDGE('',*,*,#3140,.F.);
#4220=EDGE_LOOP('',(#4210,#4200,#4140,#4130));
#4230=FACE_OUTER_BOUND('',#4220,.T.);
#4240=ADVANCED_FACE('',(#4230),#4070,.T.);
#4250=CARTESIAN_POINT('',(39.,54.,0.));
#4260=DIRECTION('',(0.,0.,1.));
#4270=DIRECTION('',(1.,0.,0.));
#4280=AXIS2_PLACEMENT_3D('',#4250,#4260,#4270);
#4290=CYLINDRICAL_SURFACE('',#4280,4.6);
#4300=ORIENTED_EDGE('',*,*,#3850,.F.);
#4310=ORIENTED_EDGE('',*,*,#4190,.T.);
#4320=ORIENTED_EDGE('',*,*,#300,.T.);
#4330=ORIENTED_EDGE('',*,*,#4120,.F.);
#4340=EDGE_LOOP('',(#4330,#4320,#4310,#4300));
#4350=FACE_OUTER_BOUND('',#4340,.T.);
#4360=ADVANCED_FACE('',(#4350),#4290,.T.);
#4370=CLOSED_SHELL('',(#4240,#4360,#1170,#1540,#1800,#2010,#2430,#2670,
#2920,#3260,#3400,#3520,#3650,#3770,#3900,#4020,#360,#680,#810));
#4380=MANIFOLD_SOLID_BREP('',#4370);
#4390=CARTESIAN_POINT('',(0.,0.,0.));
#4400=DIRECTION('',(0.,0.,1.));
#4410=DIRECTION('',(1.,0.,0.));
#4420=AXIS2_PLACEMENT_3D('',#4390,#4400,#4410);
#4430=APPLICATION_CONTEXT(' ');
#4440=APPLICATION_PROTOCOL_DEFINITION(' ','automotive_design',1998,#4430
);
#4450=PRODUCT_CONTEXT('',#4430,'mechanical');
#4460=PRODUCT_DEFINITION_CONTEXT('part definition',#4430,'design');
#4470=PRODUCT('CGT_25','CGT_25','',(#4450));
#4480=PRODUCT_RELATED_PRODUCT_CATEGORY('part',' ',(#4470));
#4490=PRODUCT_DEFINITION_FORMATION_WITH_SPECIFIED_SOURCE('','',#4470,
.BOUGHT.);
#4500=PRODUCT_DEFINITION('',' ',#4490,#4460);
#4510=PRODUCT_DEFINITION_SHAPE('','',#4500);
#4520=DIMENSIONAL_EXPONENTS(1.,0.,0.,0.,0.,0.,0.);
#4530=DIMENSIONAL_EXPONENTS(0.,0.,0.,0.,0.,0.,0.);
#4540=DIMENSIONAL_EXPONENTS(0.,0.,0.,0.,0.,0.,0.);
#4550=(LENGTH_UNIT() NAMED_UNIT(*) SI_UNIT(.MILLI.,.METRE.));
#4560=(NAMED_UNIT(*) PLANE_ANGLE_UNIT() SI_UNIT($,.RADIAN.));
#4570=(NAMED_UNIT(*) SI_UNIT($,.STERADIAN.) SOLID_ANGLE_UNIT());
#4580=(GEOMETRIC_REPRESENTATION_CONTEXT(3) 
GLOBAL_UNCERTAINTY_ASSIGNED_CONTEXT((#4590)) 
GLOBAL_UNIT_ASSIGNED_CONTEXT((#4550,#4560,#4570)) REPRESENTATION_CONTEXT
('',''));
#4590=UNCERTAINTY_MEASURE_WITH_UNIT(LENGTH_MEASURE(1.E-6),#4550,
'distance_accuracy_value','maximum gap value');
#4600=ADVANCED_BREP_SHAPE_REPRESENTATION('',(#4420,#4380),#4580);
#4610=SHAPE_DEFINITION_REPRESENTATION(#4510,#4600);
#4620=COLOUR_RGB('',0.784313797950745,0.784313797950745,
0.784313797950745);
#4630=FILL_AREA_STYLE_COLOUR('',#4620);
#4640=FILL_AREA_STYLE('',(#4630));
#4650=SURFACE_STYLE_FILL_AREA(#4640);
#4660=SURFACE_SIDE_STYLE('',(#4650));
#4670=SURFACE_STYLE_USAGE(.BOTH.,#4660);
#4680=PRESENTATION_STYLE_ASSIGNMENT((#4670));
#4690=STYLED_ITEM('',(#4680),#4380);
#4700=DRAUGHTING_MODEL('',(#4690),#4580);
ENDSEC;
END-ISO-10303-21;
